Towns OST tablature

General discussion about the game

Towns OST tablature

Postby supermalparit » Sat Dec 29, 2012 7:21 pm

Towns main theme!

Code: Select all
---------0-------|---------0-------|---------0-------|---------0-------|-2-----2-----2---|-1-----1-----1---|---------0-------|---------0-------|
-0-1-------1---0-|-0-1-------1---0-|-0-1-------1---0-|-0-1-------1---0-|---3-----3-----3-|---1-----1-----1-|-0-1-------1---0-|-0-1-------------|
-----2-------2---|-----0-------0---|-----2-------2---|-----0-------0---|-----2-----2-----|-----2-----2-----|-----2-------2---|-----2-----------|
-------2---------|-------2---------|-------2---------|-------2---------|-0---------------|-----------------|-------2---------|-------2---------|
-0---------------|-3---------------|-0---------------|-3---------------|-----------------|-0---------------|-0---------------|-0---------------|
-----------------|-----------------|-----------------|-----------------|-----------------|-----------------|-----------------|-----------------|


---------0-------|---------0-------|---------0-------|---------0-------|-2-----2-----2---|-1-----1-----1---|---------0-------|-0---------------|
-0-1-------1---0-|-0-1-------1---0-|-0-1-------1---0-|-0-1-------1---0-|---3-----3-----3-|---1-----1-----1-|-0-1-------1---0-|-0---------------|
-----2-------2---|-----0-------0---|-----2-------2---|-----0-------0---|-----2-----2-----|-----2-----2-----|-----2-------2---|-1---------------|
-------2---------|-------2---------|-------2---------|-------2---------|-0---------------|-----------------|-------2---------|-2---------------|
-0---------------|-3---------------|-0---------------|-3---------------|-----------------|-0---------------|-0---------------|-2---------------|
-----------------|-----------------|-----------------|-----------------|-----------------|-----------------|-----------------|-0---------------|


2 times
-0-----0-----0-----0-----|-0-----0-----0-----0-----|-0-----0-----0-----0-----|-0-----0-----0-----0-----|
---2-----2-----2-----2---|---2-----2-----2-----2---|---3-----3-----3-----3---|---3-----3-----3-----3---|
-----2-----2-----2-----2-|-----2-----2-----2-----2-|-----3-----3-----3-----3-|-----3-----3-----3-----3-|
-------2-----------2-----|-------2-----------2-----|-------3-----------3-----|-------3-----------3-----|
-0-----------0-----------|-0-----------0-----------|-0-----------0-----------|-0-----------0-----------|
-------------------------|-------------------------|-------------------------|-------------------------|


2 times
-0-----0-----0-----0-----|-0-----0-----0-----0-----|-0-----0-----0-----0-----|-0-----0-----0-----0-----|
---4-----4-----4-----4---|---3-----3-----3-----3---|---4-----4-----4-----4---|---3-----3-----3-----3---|
-----4-----4-----4-----4-|-----3-----3-----3-----3-|-----4-----4-----4-----4-|-----3-----3-----3-----3-|
-------4-----------4-----|-------3-----------3-----|-------4-----------4-----|-------3-----------3-----|
-0-----------0-----------|-0-----------0-----------|-0-----------0-----------|-0-----------0-----------|
-------------------------|-------------------------|-------------------------|-------------------------|


-0-----0-----0-----|
---3-----3-----3---|
-----3-----3-----3-|
-------------------|
-------------------|
-------------------|



Main menu tablature

Repeat 3 times (x3)
Code: Select all
-7-----7-----|-7-----7-----|-5-----5-----|-5-----5-----|
---7-----7---|---7-----7---|---5-----5---|---5-----5---|
-----7-----7-|-----7-----7-|-----5-----5-|-----5-----5-|
-------9-----|-------9-----|-------7-----|-------7-----|
-------------|-------------|-------------|-------------|
-7-----------|-7-----------|-5-----------|-5-----------|


Play it 1 time
Code: Select all
-3-----3-----|-3-----3-----|-5-----5-----|-5-----6-----|
---3-----5---|---3-----3---|---5-----5---|---5-----5---|
-----3-----5-|-----3-----3-|-----5-----5-|-----5-----5-|
-------5-----|-------5-----|-------7-----|-------7-----|
-------------|-------------|-------------|-------------|
-3-----------|-3-----------|-5-----------|-5-----------|


And start again :)


Edit: Thanks to default0 to to translate the tablatures

PDF File Main Theme: http://www.mediafire.com/?mkv9x5v3xc7fmgo
Image: http://puu.sh/2lsGL
Image

PDF File Main Menu Theme: http://www.mediafire.com/?faoha6h15n862k6
Image: http://puu.sh/2lu69
Image
Xavi Canal
Image
User avatar
supermalparit
Towns team
 
Posts: 2444
Joined: Thu Oct 27, 2011 11:57 pm

Re: Towns OST tablature

Postby tom k. » Sat Dec 29, 2012 8:22 pm

Nice to see this finally posted :)
Tom K.
Former Community Moderator


Please read the FAQs before posting.
Image
Towns' Official Modding Partner Site - Townsmods.net
tom k.
 
Posts: 1605
Joined: Wed Mar 28, 2012 7:22 pm
Location: Lincoln, UK

Re: Towns OST tablature

Postby retrox » Tue Jan 01, 2013 9:50 pm

Hooray for tabs! I'm a bass player, though. WHERE'S THE BASS LINE?! :lol:
retrox
 
Posts: 82
Joined: Sun Feb 05, 2012 9:48 pm

Re: Towns OST tablature

Postby supermalparit » Wed Jan 02, 2013 1:16 am

Hmmm... just avoid the 2 upper strings :P
Xavi Canal
Image
User avatar
supermalparit
Towns team
 
Posts: 2444
Joined: Thu Oct 27, 2011 11:57 pm

Re: Towns OST tablature

Postby City Builder » Wed Jan 02, 2013 3:00 pm

I apparently have no rhythm because I can't tap it out with my fingers. ;)
Last edited by City Builder on Thu Jan 24, 2013 11:04 pm, edited 1 time in total.
burningpet wrote:And yeah, the Majesty reference is correct, towns will eventually aim to be a much more advanced Majesty rather than a dumbed down dwarf fortress.

Play Towns on an unlimited amount of maps: viewtopic.php?f=13&t=1659
User avatar
City Builder
 
Posts: 1950
Joined: Fri Mar 02, 2012 5:32 am
Location: Check your Mom's basement.

Re: Towns OST tablature

Postby lordkerward » Thu Jan 24, 2013 1:29 am

I love the the Town's theme song, Nice tabs sharing sir...
I can also play a bass guitar, but i'm currently a lead guitarist,

__________________________________
swiss army knife is a dangerous weapon, even to the possessor, if he knows not how to use it discreetly.
pR0feSor xXx
Last edited by lordkerward on Sun Jan 27, 2013 11:28 pm, edited 2 times in total.
User avatar
lordkerward
 
Posts: 3
Joined: Fri Jan 04, 2013 11:49 am
Location: Ottawa,

Re: Towns OST tablature

Postby supermalparit » Thu Jan 24, 2013 11:28 am

Now we just need people start making Youtube videos playing our OST, anyone? :)
Xavi Canal
Image
User avatar
supermalparit
Towns team
 
Posts: 2444
Joined: Thu Oct 27, 2011 11:57 pm

Re: Towns OST tablature

Postby light487 » Thu Jan 24, 2013 11:00 pm

Looks easy enough (chord patterns, with finger-style on Am, C, Am, C, D, F).. will have a fiddle.. and see if I can come up with something.
light487
 
Posts: 53
Joined: Sun Nov 04, 2012 10:40 pm

Re: Towns OST tablature

Postby smeagolthevile » Mon Mar 18, 2013 3:10 am

Any chance we could get this in a form that's legible to anyone that has bothered to take the time to learn how to read music properly.
smeagolthevile
 
Posts: 230
Joined: Thu Jan 03, 2013 9:59 pm

Re: Towns OST tablature

Postby default0 » Mon Mar 18, 2013 2:22 pm

smeagolthevile wrote:Any chance we could get this in a form that's legible to anyone that has bothered to take the time to learn how to read music properly.


No probs mate

Download link: PDF File

Alternative Screenshot
Image
default0
 
Posts: 9
Joined: Mon Mar 18, 2013 2:15 pm

Next

Return to General discussion

Who is online

Users browsing this forum: No registered users and 11 guests

cron